ISO-10303-21;
HEADER;
/* Generated by software containing ST-Developer
 * from STEP Tools, Inc. (www.steptools.com) 
 */
/* OPTION: strings as raw bytes, not using required /X/ escapes */

FILE_DESCRIPTION(
/* description */ ('Unknown'),
/* implementation_level */ '2;1');

FILE_NAME(
/* name */ 'SN 2004.1 LED 230V',
/* time_stamp */ '2018-04-27T11:50:27+02:00',
/* author */ ('Unknown'),
/* organization */ ('Unknown'),
/* preprocessor_version */ 'ST-DEVELOPER v16.7',
/* originating_system */ 'DEX',
/* authorisation */ $);

FILE_SCHEMA (('AUTOMOTIVE_DESIGN {1 0 10303 214 3 1 1}'));
ENDSEC;

DATA;
#10=PROPERTY_DEFINITION_REPRESENTATION(#14,#12);
#11=PROPERTY_DEFINITION_REPRESENTATION(#15,#13);
#12=REPRESENTATION('',(#16),#467);
#13=REPRESENTATION('',(#17),#467);
#14=PROPERTY_DEFINITION('pmi validation property','',#472);
#15=PROPERTY_DEFINITION('pmi validation property','',#472);
#16=VALUE_REPRESENTATION_ITEM('number of annotations',COUNT_MEASURE(0.));
#17=VALUE_REPRESENTATION_ITEM('number of views',COUNT_MEASURE(0.));
#18=SHAPE_REPRESENTATION_RELATIONSHIP('','',#289,#19);
#19=ADVANCED_BREP_SHAPE_REPRESENTATION('',(#287),#467);
#20=CYLINDRICAL_SURFACE('',#310,3.);
#21=CYLINDRICAL_SURFACE('',#311,3.);
#22=CYLINDRICAL_SURFACE('',#312,3.);
#23=CYLINDRICAL_SURFACE('',#313,3.);
#24=CIRCLE('',#297,3.);
#25=CIRCLE('',#298,3.);
#26=CIRCLE('',#299,3.);
#27=CIRCLE('',#300,3.);
#28=CIRCLE('',#306,3.);
#29=CIRCLE('',#307,3.);
#30=CIRCLE('',#308,3.);
#31=CIRCLE('',#309,3.);
#32=ORIENTED_EDGE('',*,*,#104,.F.);
#33=ORIENTED_EDGE('',*,*,#105,.F.);
#34=ORIENTED_EDGE('',*,*,#106,.T.);
#35=ORIENTED_EDGE('',*,*,#107,.F.);
#36=ORIENTED_EDGE('',*,*,#106,.F.);
#37=ORIENTED_EDGE('',*,*,#108,.T.);
#38=ORIENTED_EDGE('',*,*,#109,.T.);
#39=ORIENTED_EDGE('',*,*,#110,.F.);
#40=ORIENTED_EDGE('',*,*,#111,.F.);
#41=ORIENTED_EDGE('',*,*,#112,.T.);
#42=ORIENTED_EDGE('',*,*,#104,.T.);
#43=ORIENTED_EDGE('',*,*,#113,.F.);
#44=ORIENTED_EDGE('',*,*,#114,.T.);
#45=ORIENTED_EDGE('',*,*,#113,.T.);
#46=ORIENTED_EDGE('',*,*,#107,.T.);
#47=ORIENTED_EDGE('',*,*,#110,.T.);
#48=ORIENTED_EDGE('',*,*,#105,.T.);
#49=ORIENTED_EDGE('',*,*,#112,.F.);
#50=ORIENTED_EDGE('',*,*,#115,.F.);
#51=ORIENTED_EDGE('',*,*,#108,.F.);
#52=ORIENTED_EDGE('',*,*,#116,.F.);
#53=ORIENTED_EDGE('',*,*,#117,.T.);
#54=ORIENTED_EDGE('',*,*,#118,.F.);
#55=ORIENTED_EDGE('',*,*,#119,.T.);
#56=ORIENTED_EDGE('',*,*,#120,.F.);
#57=ORIENTED_EDGE('',*,*,#121,.T.);
#58=ORIENTED_EDGE('',*,*,#122,.F.);
#59=ORIENTED_EDGE('',*,*,#123,.T.);
#60=ORIENTED_EDGE('',*,*,#115,.T.);
#61=ORIENTED_EDGE('',*,*,#111,.T.);
#62=ORIENTED_EDGE('',*,*,#114,.F.);
#63=ORIENTED_EDGE('',*,*,#109,.F.);
#64=ORIENTED_EDGE('',*,*,#122,.T.);
#65=ORIENTED_EDGE('',*,*,#124,.T.);
#66=ORIENTED_EDGE('',*,*,#125,.F.);
#67=ORIENTED_EDGE('',*,*,#126,.T.);
#68=ORIENTED_EDGE('',*,*,#127,.F.);
#69=ORIENTED_EDGE('',*,*,#128,.T.);
#70=ORIENTED_EDGE('',*,*,#120,.T.);
#71=ORIENTED_EDGE('',*,*,#129,.T.);
#72=ORIENTED_EDGE('',*,*,#118,.T.);
#73=ORIENTED_EDGE('',*,*,#130,.T.);
#74=ORIENTED_EDGE('',*,*,#131,.F.);
#75=ORIENTED_EDGE('',*,*,#132,.T.);
#76=ORIENTED_EDGE('',*,*,#133,.F.);
#77=ORIENTED_EDGE('',*,*,#134,.T.);
#78=ORIENTED_EDGE('',*,*,#116,.T.);
#79=ORIENTED_EDGE('',*,*,#135,.T.);
#80=ORIENTED_EDGE('',*,*,#131,.T.);
#81=ORIENTED_EDGE('',*,*,#136,.T.);
#82=ORIENTED_EDGE('',*,*,#133,.T.);
#83=ORIENTED_EDGE('',*,*,#137,.T.);
#84=ORIENTED_EDGE('',*,*,#125,.T.);
#85=ORIENTED_EDGE('',*,*,#138,.T.);
#86=ORIENTED_EDGE('',*,*,#127,.T.);
#87=ORIENTED_EDGE('',*,*,#139,.T.);
#88=ORIENTED_EDGE('',*,*,#137,.F.);
#89=ORIENTED_EDGE('',*,*,#135,.F.);
#90=ORIENTED_EDGE('',*,*,#123,.F.);
#91=ORIENTED_EDGE('',*,*,#126,.F.);
#92=ORIENTED_EDGE('',*,*,#139,.F.);
#93=ORIENTED_EDGE('',*,*,#129,.F.);
#94=ORIENTED_EDGE('',*,*,#119,.F.);
#95=ORIENTED_EDGE('',*,*,#132,.F.);
#96=ORIENTED_EDGE('',*,*,#138,.F.);
#97=ORIENTED_EDGE('',*,*,#124,.F.);
#98=ORIENTED_EDGE('',*,*,#121,.F.);
#99=ORIENTED_EDGE('',*,*,#128,.F.);
#100=ORIENTED_EDGE('',*,*,#136,.F.);
#101=ORIENTED_EDGE('',*,*,#130,.F.);
#102=ORIENTED_EDGE('',*,*,#117,.F.);
#103=ORIENTED_EDGE('',*,*,#134,.F.);
#104=EDGE_CURVE('',#140,#141,#164,.T.);
#105=EDGE_CURVE('',#142,#140,#165,.T.);
#106=EDGE_CURVE('',#142,#143,#166,.T.);
#107=EDGE_CURVE('',#141,#143,#167,.T.);
#108=EDGE_CURVE('',#142,#144,#168,.T.);
#109=EDGE_CURVE('',#144,#145,#169,.T.);
#110=EDGE_CURVE('',#143,#145,#170,.T.);
#111=EDGE_CURVE('',#146,#147,#171,.T.);
#112=EDGE_CURVE('',#146,#140,#172,.T.);
#113=EDGE_CURVE('',#147,#141,#173,.T.);
#114=EDGE_CURVE('',#145,#147,#174,.T.);
#115=EDGE_CURVE('',#144,#146,#175,.F.);
#116=EDGE_CURVE('',#148,#149,#176,.T.);
#117=EDGE_CURVE('',#148,#150,#24,.F.);
#118=EDGE_CURVE('',#151,#150,#177,.T.);
#119=EDGE_CURVE('',#151,#152,#25,.F.);
#120=EDGE_CURVE('',#153,#152,#178,.T.);
#121=EDGE_CURVE('',#153,#154,#26,.F.);
#122=EDGE_CURVE('',#155,#154,#179,.T.);
#123=EDGE_CURVE('',#155,#149,#27,.F.);
#124=EDGE_CURVE('',#154,#156,#180,.F.);
#125=EDGE_CURVE('',#157,#156,#181,.T.);
#126=EDGE_CURVE('',#157,#155,#182,.T.);
#127=EDGE_CURVE('',#158,#159,#183,.T.);
#128=EDGE_CURVE('',#158,#153,#184,.T.);
#129=EDGE_CURVE('',#152,#159,#185,.F.);
#130=EDGE_CURVE('',#150,#160,#186,.F.);
#131=EDGE_CURVE('',#161,#160,#187,.T.);
#132=EDGE_CURVE('',#161,#151,#188,.T.);
#133=EDGE_CURVE('',#162,#163,#189,.T.);
#134=EDGE_CURVE('',#162,#148,#190,.T.);
#135=EDGE_CURVE('',#149,#163,#191,.F.);
#136=EDGE_CURVE('',#160,#162,#28,.T.);
#137=EDGE_CURVE('',#163,#157,#29,.T.);
#138=EDGE_CURVE('',#156,#158,#30,.T.);
#139=EDGE_CURVE('',#159,#161,#31,.T.);
#140=VERTEX_POINT('',#393);
#141=VERTEX_POINT('',#394);
#142=VERTEX_POINT('',#396);
#143=VERTEX_POINT('',#398);
#144=VERTEX_POINT('',#402);
#145=VERTEX_POINT('',#404);
#146=VERTEX_POINT('',#408);
#147=VERTEX_POINT('',#409);
#148=VERTEX_POINT('',#418);
#149=VERTEX_POINT('',#419);
#150=VERTEX_POINT('',#421);
#151=VERTEX_POINT('',#423);
#152=VERTEX_POINT('',#425);
#153=VERTEX_POINT('',#427);
#154=VERTEX_POINT('',#429);
#155=VERTEX_POINT('',#431);
#156=VERTEX_POINT('',#435);
#157=VERTEX_POINT('',#437);
#158=VERTEX_POINT('',#441);
#159=VERTEX_POINT('',#442);
#160=VERTEX_POINT('',#447);
#161=VERTEX_POINT('',#449);
#162=VERTEX_POINT('',#453);
#163=VERTEX_POINT('',#454);
#164=LINE('',#392,#192);
#165=LINE('',#395,#193);
#166=LINE('',#397,#194);
#167=LINE('',#399,#195);
#168=LINE('',#401,#196);
#169=LINE('',#403,#197);
#170=LINE('',#405,#198);
#171=LINE('',#407,#199);
#172=LINE('',#410,#200);
#173=LINE('',#411,#201);
#174=LINE('',#413,#202);
#175=LINE('',#415,#203);
#176=LINE('',#417,#204);
#177=LINE('',#422,#205);
#178=LINE('',#426,#206);
#179=LINE('',#430,#207);
#180=LINE('',#434,#208);
#181=LINE('',#436,#209);
#182=LINE('',#438,#210);
#183=LINE('',#440,#211);
#184=LINE('',#443,#212);
#185=LINE('',#444,#213);
#186=LINE('',#446,#214);
#187=LINE('',#448,#215);
#188=LINE('',#450,#216);
#189=LINE('',#452,#217);
#190=LINE('',#455,#218);
#191=LINE('',#456,#219);
#192=VECTOR('',#318,1000.);
#193=VECTOR('',#319,1000.);
#194=VECTOR('',#320,1000.);
#195=VECTOR('',#321,1000.);
#196=VECTOR('',#324,1000.);
#197=VECTOR('',#325,1000.);
#198=VECTOR('',#326,1000.);
#199=VECTOR('',#329,1000.);
#200=VECTOR('',#330,1000.);
#201=VECTOR('',#331,1000.);
#202=VECTOR('',#334,1000.);
#203=VECTOR('',#337,1000.);
#204=VECTOR('',#340,1000.);
#205=VECTOR('',#343,1000.);
#206=VECTOR('',#346,1000.);
#207=VECTOR('',#349,1000.);
#208=VECTOR('',#354,1000.);
#209=VECTOR('',#355,1000.);
#210=VECTOR('',#356,1000.);
#211=VECTOR('',#359,1000.);
#212=VECTOR('',#360,1000.);
#213=VECTOR('',#361,1000.);
#214=VECTOR('',#364,1000.);
#215=VECTOR('',#365,1000.);
#216=VECTOR('',#366,1000.);
#217=VECTOR('',#369,1000.);
#218=VECTOR('',#370,1000.);
#219=VECTOR('',#371,1000.);
#220=EDGE_LOOP('',(#32,#33,#34,#35));
#221=EDGE_LOOP('',(#36,#37,#38,#39));
#222=EDGE_LOOP('',(#40,#41,#42,#43));
#223=EDGE_LOOP('',(#44,#45,#46,#47));
#224=EDGE_LOOP('',(#48,#49,#50,#51));
#225=EDGE_LOOP('',(#52,#53,#54,#55,#56,#57,#58,#59));
#226=EDGE_LOOP('',(#60,#61,#62,#63));
#227=EDGE_LOOP('',(#64,#65,#66,#67));
#228=EDGE_LOOP('',(#68,#69,#70,#71));
#229=EDGE_LOOP('',(#72,#73,#74,#75));
#230=EDGE_LOOP('',(#76,#77,#78,#79));
#231=EDGE_LOOP('',(#80,#81,#82,#83,#84,#85,#86,#87));
#232=EDGE_LOOP('',(#88,#89,#90,#91));
#233=EDGE_LOOP('',(#92,#93,#94,#95));
#234=EDGE_LOOP('',(#96,#97,#98,#99));
#235=EDGE_LOOP('',(#100,#101,#102,#103));
#236=FACE_BOUND('',#220,.T.);
#237=FACE_BOUND('',#221,.T.);
#238=FACE_BOUND('',#222,.T.);
#239=FACE_BOUND('',#223,.T.);
#240=FACE_BOUND('',#224,.T.);
#241=FACE_BOUND('',#225,.T.);
#242=FACE_BOUND('',#226,.T.);
#243=FACE_BOUND('',#227,.T.);
#244=FACE_BOUND('',#228,.T.);
#245=FACE_BOUND('',#229,.T.);
#246=FACE_BOUND('',#230,.T.);
#247=FACE_BOUND('',#231,.T.);
#248=FACE_BOUND('',#232,.T.);
#249=FACE_BOUND('',#233,.T.);
#250=FACE_BOUND('',#234,.T.);
#251=FACE_BOUND('',#235,.T.);
#252=PLANE('',#291);
#253=PLANE('',#292);
#254=PLANE('',#293);
#255=PLANE('',#294);
#256=PLANE('',#295);
#257=PLANE('',#296);
#258=PLANE('',#301);
#259=PLANE('',#302);
#260=PLANE('',#303);
#261=PLANE('',#304);
#262=PLANE('',#305);
#263=ADVANCED_FACE('',(#236),#252,.T.);
#264=ADVANCED_FACE('',(#237),#253,.T.);
#265=ADVANCED_FACE('',(#238),#254,.T.);
#266=ADVANCED_FACE('',(#239),#255,.T.);
#267=ADVANCED_FACE('',(#240),#256,.T.);
#268=ADVANCED_FACE('',(#241,#242),#257,.F.);
#269=ADVANCED_FACE('',(#243),#258,.F.);
#270=ADVANCED_FACE('',(#244),#259,.F.);
#271=ADVANCED_FACE('',(#245),#260,.F.);
#272=ADVANCED_FACE('',(#246),#261,.F.);
#273=ADVANCED_FACE('',(#247),#262,.T.);
#274=ADVANCED_FACE('',(#248),#20,.T.);
#275=ADVANCED_FACE('',(#249),#21,.T.);
#276=ADVANCED_FACE('',(#250),#22,.T.);
#277=ADVANCED_FACE('',(#251),#23,.T.);
#278=CLOSED_SHELL('',(#263,#264,#265,#266,#267,#268,#269,#270,#271,#272,
#273,#274,#275,#276,#277));
#279=STYLED_ITEM('',(#280),#287);
#280=PRESENTATION_STYLE_ASSIGNMENT((#281));
#281=SURFACE_STYLE_USAGE(.BOTH.,#282);
#282=SURFACE_SIDE_STYLE('',(#283));
#283=SURFACE_STYLE_FILL_AREA(#284);
#284=FILL_AREA_STYLE('',(#285));
#285=FILL_AREA_STYLE_COLOUR('',#286);
#286=COLOUR_RGB('',0.645180702209473,0.678915679454803,0.699999988079071);
#287=MANIFOLD_SOLID_BREP('',#278);
#288=SHAPE_DEFINITION_REPRESENTATION(#472,#289);
#289=SHAPE_REPRESENTATION('Part11',(#290),#467);
#290=AXIS2_PLACEMENT_3D('',#390,#314,#315);
#291=AXIS2_PLACEMENT_3D('',#391,#316,#317);
#292=AXIS2_PLACEMENT_3D('',#400,#322,#323);
#293=AXIS2_PLACEMENT_3D('',#406,#327,#328);
#294=AXIS2_PLACEMENT_3D('',#412,#332,#333);
#295=AXIS2_PLACEMENT_3D('',#414,#335,#336);
#296=AXIS2_PLACEMENT_3D('',#416,#338,#339);
#297=AXIS2_PLACEMENT_3D('',#420,#341,#342);
#298=AXIS2_PLACEMENT_3D('',#424,#344,#345);
#299=AXIS2_PLACEMENT_3D('',#428,#347,#348);
#300=AXIS2_PLACEMENT_3D('',#432,#350,#351);
#301=AXIS2_PLACEMENT_3D('',#433,#352,#353);
#302=AXIS2_PLACEMENT_3D('',#439,#357,#358);
#303=AXIS2_PLACEMENT_3D('',#445,#362,#363);
#304=AXIS2_PLACEMENT_3D('',#451,#367,#368);
#305=AXIS2_PLACEMENT_3D('',#457,#372,#373);
#306=AXIS2_PLACEMENT_3D('',#458,#374,#375);
#307=AXIS2_PLACEMENT_3D('',#459,#376,#377);
#308=AXIS2_PLACEMENT_3D('',#460,#378,#379);
#309=AXIS2_PLACEMENT_3D('',#461,#380,#381);
#310=AXIS2_PLACEMENT_3D('',#462,#382,#383);
#311=AXIS2_PLACEMENT_3D('',#463,#384,#385);
#312=AXIS2_PLACEMENT_3D('',#464,#386,#387);
#313=AXIS2_PLACEMENT_3D('',#465,#388,#389);
#314=DIRECTION('',(0.,0.,1.));
#315=DIRECTION('',(1.,0.,0.));
#316=DIRECTION('',(-1.80645053684038E-16,0.18152749348501,0.983385869894951));
#317=DIRECTION('',(0.,-0.983385869894951,0.18152749348501));
#318=DIRECTION('',(-0.101686482105298,0.978288484634267,-0.180586544872642));
#319=DIRECTION('',(-1.,0.,0.));
#320=DIRECTION('',(0.1016864821053,0.978288484634267,-0.180586544872642));
#321=DIRECTION('',(1.,0.,0.));
#322=DIRECTION('',(0.743008444234275,0.0460225464425902,0.667697818639167));
#323=DIRECTION('',(0.668406060875992,0.,-0.743796570161654));
#324=DIRECTION('',(0.63045492185504,-0.382983367544572,-0.675166891733425));
#325=DIRECTION('',(-0.0618223298881199,0.998087170304881,2.38321437770012E-17));
#326=DIRECTION('',(0.668406060875992,0.,-0.743796570161654));
#327=DIRECTION('',(-0.743008444234275,0.0460225464425917,0.667697818639167));
#328=DIRECTION('',(0.668406060875992,0.,0.743796570161654));
#329=DIRECTION('',(0.0618223298881214,0.998087170304881,9.53285751080048E-17));
#330=DIRECTION('',(0.63045492185504,0.382983367544572,0.675166891733425));
#331=DIRECTION('',(0.668406060875993,0.,0.743796570161653));
#332=DIRECTION('',(0.,1.,0.));
#333=DIRECTION('',(0.,0.,1.));
#334=DIRECTION('',(-1.,0.,0.));
#335=DIRECTION('',(0.,-0.869807260089532,0.493391660139835));
#336=DIRECTION('',(0.,-0.493391660139835,-0.869807260089532));
#337=DIRECTION('',(1.,0.,2.04085114820801E-17));
#338=DIRECTION('',(0.,0.,-1.));
#339=DIRECTION('',(-1.,0.,0.));
#340=DIRECTION('',(-1.,0.,0.));
#341=DIRECTION('',(0.,0.,-1.));
#342=DIRECTION('',(-1.,0.,0.));
#343=DIRECTION('',(-1.50030138462859E-16,-1.,0.));
#344=DIRECTION('',(0.,0.,-1.));
#345=DIRECTION('',(-1.,0.,0.));
#346=DIRECTION('',(1.,0.,0.));
#347=DIRECTION('',(0.,0.,-1.));
#348=DIRECTION('',(-1.,0.,0.));
#349=DIRECTION('',(-1.50030138462859E-16,1.,0.));
#350=DIRECTION('',(0.,0.,-1.));
#351=DIRECTION('',(-1.,0.,0.));
#352=DIRECTION('',(1.,1.50030138462859E-16,0.));
#353=DIRECTION('',(-1.50030138462859E-16,1.,0.));
#354=DIRECTION('',(0.,0.,1.));
#355=DIRECTION('',(-1.50030138462859E-16,1.,0.));
#356=DIRECTION('',(0.,0.,1.));
#357=DIRECTION('',(0.,-1.,0.));
#358=DIRECTION('',(0.,0.,-1.));
#359=DIRECTION('',(1.,0.,0.));
#360=DIRECTION('',(0.,0.,1.));
#361=DIRECTION('',(0.,0.,1.));
#362=DIRECTION('',(-1.,1.50030138462859E-16,0.));
#363=DIRECTION('',(-1.50030138462859E-16,-1.,0.));
#364=DIRECTION('',(0.,0.,1.));
#365=DIRECTION('',(-1.50030138462859E-16,-1.,0.));
#366=DIRECTION('',(0.,0.,1.));
#367=DIRECTION('',(0.,1.,0.));
#368=DIRECTION('',(0.,0.,1.));
#369=DIRECTION('',(-1.,0.,0.));
#370=DIRECTION('',(0.,0.,1.));
#371=DIRECTION('',(0.,0.,1.));
#372=DIRECTION('',(0.,0.,-1.));
#373=DIRECTION('',(-1.,0.,0.));
#374=DIRECTION('',(0.,0.,-1.));
#375=DIRECTION('',(-1.,0.,0.));
#376=DIRECTION('',(0.,0.,-1.));
#377=DIRECTION('',(-1.,0.,0.));
#378=DIRECTION('',(0.,0.,-1.));
#379=DIRECTION('',(-1.,0.,0.));
#380=DIRECTION('',(0.,0.,-1.));
#381=DIRECTION('',(-1.,0.,0.));
#382=DIRECTION('',(0.,0.,1.));
#383=DIRECTION('',(1.,0.,0.));
#384=DIRECTION('',(0.,0.,1.));
#385=DIRECTION('',(1.,0.,0.));
#386=DIRECTION('',(0.,0.,1.));
#387=DIRECTION('',(1.,0.,0.));
#388=DIRECTION('',(0.,0.,1.));
#389=DIRECTION('',(1.,0.,0.));
#390=CARTESIAN_POINT('',(0.,0.,0.));
#391=CARTESIAN_POINT('',(-1.8845346955344E-30,1.89374052978082E-15,1.02589290607245E-14));
#392=CARTESIAN_POINT('',(-65.3014769324018,72.65,-13.4107808596993));
#393=CARTESIAN_POINT('',(-59.3684420720896,15.5704397417679,-2.87421548886445));
#394=CARTESIAN_POINT('',(-72.8529538648035,145.3,-26.8215617193986));
#395=CARTESIAN_POINT('',(794.658346734365,15.5704397417679,-2.87421548886443));
#396=CARTESIAN_POINT('',(59.36844207209,15.5704397417678,-2.87421548886453));
#397=CARTESIAN_POINT('',(65.3014769324019,72.65,-13.4107808596993));
#398=CARTESIAN_POINT('',(72.8529538648038,145.3,-26.8215617193986));
#399=CARTESIAN_POINT('',(-72.8529538648035,145.3,-26.8215617193986));
#400=CARTESIAN_POINT('',(65.3014769324019,72.65,-13.4107808596993));
#401=CARTESIAN_POINT('',(52.4296103859705,19.785581909515,4.55671931610751));
#402=CARTESIAN_POINT('',(85.,0.,-30.3235678478766));
#403=CARTESIAN_POINT('',(85.,0.,-30.3235678478766));
#404=CARTESIAN_POINT('',(76.0000000000001,145.3,-30.3235678478766));
#405=CARTESIAN_POINT('',(72.8529538648037,145.3,-26.8215617193986));
#406=CARTESIAN_POINT('',(-65.3014769324018,72.65,-13.4107808596993));
#407=CARTESIAN_POINT('',(-85.,0.,-30.3235678478766));
#408=CARTESIAN_POINT('',(-84.9999999999999,1.73472347597681E-14,-30.3235678478765));
#409=CARTESIAN_POINT('',(-75.9999999999999,145.3,-30.3235678478766));
#410=CARTESIAN_POINT('',(-52.4296103859704,19.785581909515,4.55671931610753));
#411=CARTESIAN_POINT('',(-75.9999999999999,145.3,-30.3235678478766));
#412=CARTESIAN_POINT('',(1.07552855510562E-13,145.3,-28.5725647836376));
#413=CARTESIAN_POINT('',(76.0000000000001,145.3,-30.3235678478766));
#414=CARTESIAN_POINT('',(794.658346734365,0.,-30.3235678478766));
#415=CARTESIAN_POINT('',(-85.,0.,-30.3235678478766));
#416=CARTESIAN_POINT('',(0.,0.,-30.3235678478766));
#417=CARTESIAN_POINT('',(92.5,-19.85,-30.3235678478766));
#418=CARTESIAN_POINT('',(89.5,-19.85,-30.3235678478766));
#419=CARTESIAN_POINT('',(-89.5,-19.85,-30.3235678478766));
#420=CARTESIAN_POINT('',(89.5,-16.85,-30.3235678478766));
#421=CARTESIAN_POINT('',(92.5,-16.8499999999999,-30.3235678478766));
#422=CARTESIAN_POINT('',(92.5,165.15,-30.3235678478766));
#423=CARTESIAN_POINT('',(92.5,162.15,-30.3235678478766));
#424=CARTESIAN_POINT('',(89.5,162.15,-30.3235678478766));
#425=CARTESIAN_POINT('',(89.5,165.15,-30.3235678478766));
#426=CARTESIAN_POINT('',(-92.5,165.15,-30.3235678478766));
#427=CARTESIAN_POINT('',(-89.5,165.15,-30.3235678478766));
#428=CARTESIAN_POINT('',(-89.5,162.15,-30.3235678478766));
#429=CARTESIAN_POINT('',(-92.5,162.15,-30.3235678478766));
#430=CARTESIAN_POINT('',(-92.5,-19.85,-30.3235678478766));
#431=CARTESIAN_POINT('',(-92.5,-16.85,-30.3235678478766));
#432=CARTESIAN_POINT('',(-89.5,-16.85,-30.3235678478766));
#433=CARTESIAN_POINT('',(-92.5,-19.85,-60.3235678478766));
#434=CARTESIAN_POINT('',(-92.5,162.15,-60.3235678478766));
#435=CARTESIAN_POINT('',(-92.5,162.15,-60.3235678478766));
#436=CARTESIAN_POINT('',(-92.5,-19.85,-60.3235678478766));
#437=CARTESIAN_POINT('',(-92.5,-16.85,-60.3235678478766));
#438=CARTESIAN_POINT('',(-92.5,-16.85,-60.3235678478766));
#439=CARTESIAN_POINT('',(-92.5,165.15,-60.3235678478766));
#440=CARTESIAN_POINT('',(-92.5,165.15,-60.3235678478766));
#441=CARTESIAN_POINT('',(-89.5,165.15,-60.3235678478766));
#442=CARTESIAN_POINT('',(89.5,165.15,-60.3235678478766));
#443=CARTESIAN_POINT('',(-89.5,165.15,-60.3235678478766));
#444=CARTESIAN_POINT('',(89.5,165.15,-60.3235678478766));
#445=CARTESIAN_POINT('',(92.5,165.15,-60.3235678478766));
#446=CARTESIAN_POINT('',(92.5,-16.8499999999999,-60.3235678478766));
#447=CARTESIAN_POINT('',(92.5,-16.8499999999999,-60.3235678478766));
#448=CARTESIAN_POINT('',(92.5,165.15,-60.3235678478766));
#449=CARTESIAN_POINT('',(92.5,162.15,-60.3235678478766));
#450=CARTESIAN_POINT('',(92.5,162.15,-60.3235678478766));
#451=CARTESIAN_POINT('',(92.5,-19.85,-60.3235678478766));
#452=CARTESIAN_POINT('',(92.5,-19.85,-60.3235678478766));
#453=CARTESIAN_POINT('',(89.5,-19.85,-60.3235678478766));
#454=CARTESIAN_POINT('',(-89.5,-19.85,-60.3235678478766));
#455=CARTESIAN_POINT('',(89.5,-19.85,-60.3235678478766));
#456=CARTESIAN_POINT('',(-89.5,-19.85,-60.3235678478766));
#457=CARTESIAN_POINT('',(0.,0.,-60.3235678478766));
#458=CARTESIAN_POINT('',(89.5,-16.85,-60.3235678478766));
#459=CARTESIAN_POINT('',(-89.5,-16.85,-60.3235678478766));
#460=CARTESIAN_POINT('',(-89.5,162.15,-60.3235678478766));
#461=CARTESIAN_POINT('',(89.5,162.15,-60.3235678478766));
#462=CARTESIAN_POINT('',(-89.5,-16.85,-60.3235678478766));
#463=CARTESIAN_POINT('',(89.5,162.15,-60.3235678478766));
#464=CARTESIAN_POINT('',(-89.5,162.15,-60.3235678478766));
#465=CARTESIAN_POINT('',(89.5,-16.85,-60.3235678478766));
#466=MECHANICAL_DESIGN_GEOMETRIC_PRESENTATION_REPRESENTATION('',(#279),
#467);
#467=(
GEOMETRIC_REPRESENTATION_CONTEXT(3)
GLOBAL_UNCERTAINTY_ASSIGNED_CONTEXT((#468))
GLOBAL_UNIT_ASSIGNED_CONTEXT((#471,#470,#469))
REPRESENTATION_CONTEXT('Part11','TOP_LEVEL_ASSEMBLY_PART')
);
#468=UNCERTAINTY_MEASURE_WITH_UNIT(LENGTH_MEASURE(0.005),#471,
'DISTANCE_ACCURACY_VALUE','Maximum Tolerance applied to model');
#469=(
NAMED_UNIT(*)
SI_UNIT($,.STERADIAN.)
SOLID_ANGLE_UNIT()
);
#470=(
NAMED_UNIT(*)
PLANE_ANGLE_UNIT()
SI_UNIT($,.RADIAN.)
);
#471=(
LENGTH_UNIT()
NAMED_UNIT(*)
SI_UNIT(.MILLI.,.METRE.)
);
#472=PRODUCT_DEFINITION_SHAPE('','',#473);
#473=PRODUCT_DEFINITION('','',#475,#474);
#474=PRODUCT_DEFINITION_CONTEXT('',#481,'design');
#475=PRODUCT_DEFINITION_FORMATION_WITH_SPECIFIED_SOURCE('','',#477,
 .NOT_KNOWN.);
#476=PRODUCT_RELATED_PRODUCT_CATEGORY('','',(#477));
#477=PRODUCT('Part11','Part11','Part11',(#479));
#478=PRODUCT_CATEGORY('','');
#479=PRODUCT_CONTEXT('',#481,'mechanical');
#480=APPLICATION_PROTOCOL_DEFINITION('international standard',
'automotive_design',2010,#481);
#481=APPLICATION_CONTEXT(
'core data for automotive mechanical design processes');
ENDSEC;
END-ISO-10303-21;
